The Matrix — Clubbed to Death



Rob Dougan — Clubbed to death является саундтреком к фильму «Матрица». Играется в стандартном строю .



Табулатура как в видео:

E----------------------------------------------------|
A---------------1------------------------------------|
D---0---3---0-------0-------2------------------------|
G-0---0---0---0---0---0-4----------------------------|
B-------------------------5---5----------------------|
E----------------------------------------------------|

E----------------------------------------------------| 
A---------3-------------------1----------------------| 
D-----0-------3---3-------2--------------------------| 
G---0---0---0---0-----1-----1---1--------------------| 
B-1---------------3-3---3----------------------------| 
E----------------------------------------------------|

E-------------------3-----------3---3-----------1---1-| 
A--------------3------------4-----------0---3-0---0---| 
D------0---3-0---3----0-3-0---3---3---0---0-----------| 
G--0-0---0----------1---------------------------------| 
B-----------------------------------2---------------3-| 
E-----------------------------------------------------|

E-----1----------------------------------------------| 
A---1---4---1-4-3------------------------------------| 
D-0-----0-0---------0---3---0---3-----3-2-------0----| 
G-----------------0---0---0---0-----1---0---0-4------| 
B-------------------------------3-3-------3----------| 
E---------------3-------------------------------3----|

E---------------------3---6---10----15~~~~-----------| 
A-----------------3-----3---8----11------------------| 
D---------0---3-0---3--------------------------------| 
G-----0-----0----------------------------------------| 
B---1---1--------------------------------------------| 
E-3--------------------------------------------------|


Скачать полную табулатуру в формате gp5: clubbed to death gp5